ISO-10303-21;
HEADER;
FILE_DESCRIPTION (( 'STEP AP203' ),
    '1' );
FILE_NAME ('BK7-NPBSC-10-420-700.STEP',
    '2020-12-22T02:09:33',
    ( '' ),
    ( '' ),
    'SwSTEP 2.0',
    'SolidWorks 2020',
    '' );
FILE_SCHEMA (( 'CONFIG_CONTROL_DESIGN' ));
ENDSEC;

DATA;
#1 = CARTESIAN_POINT ( 'NONE',  ( 5.000000000000000888, -5.000000000000000000, 5.000000000000000000 ) ) ;
#2 = AXIS2_PLACEMENT_3D ( 'NONE', #240, #298, #142 ) ;
#3 = ADVANCED_FACE ( 'NONE', ( #241 ), #291, .F. ) ;
#4 = ORIENTED_EDGE ( 'NONE', *, *, #306, .F. ) ;
#5 = EDGE_CURVE ( 'NONE', #311, #89, #208, .T. ) ;
#6 = APPLICATION_PROTOCOL_DEFINITION ( 'international standard', 'config_control_design', 1994, #43 ) ;
#7 = ORIENTED_EDGE ( 'NONE', *, *, #269, .F. ) ;
#8 = VECTOR ( 'NONE', #47, 1000.000000000000000 ) ;
#9 = CARTESIAN_POINT ( 'NONE',  ( -5.000000000000000888, -4.999999999999998224, 5.000000000000000000 ) ) ;
#10 = ORIENTED_EDGE ( 'NONE', *, *, #263, .F. ) ;
#11 = ORIENTED_EDGE ( 'NONE', *, *, #258, .T. ) ;
#12 = DIRECTION ( 'NONE',  ( 0.7071067811865475727, 0.7071067811865474617, 0.000000000000000000 ) ) ;
#13 = ORIENTED_EDGE ( 'NONE', *, *, #78, .F. ) ;
#14 = LINE ( 'NONE', #40, #112 ) ;
#15 = PRODUCT_DEFINITION ( 'UNKNOWN', '', #307, #163 ) ;
#16 = VECTOR ( 'NONE', #73, 1000.000000000000000 ) ;
#17 = AXIS2_PLACEMENT_3D ( 'NONE', #188, #66, #12 ) ;
#18 = LINE ( 'NONE', #117, #304 ) ;
#19 = CARTESIAN_POINT ( 'NONE',  ( -4.999999999999999112, -5.000000000000000000, 5.000000000000000000 ) ) ;
#20 = PERSON_AND_ORGANIZATION ( #236, #39 ) ;
#21 = DIRECTION ( 'NONE',  ( -0.000000000000000000, 0.000000000000000000, 1.000000000000000000 ) ) ;
#22 = DIRECTION ( 'NONE',  ( 0.000000000000000000, 1.000000000000000000, 0.000000000000000000 ) ) ;
#23 = AXIS2_PLACEMENT_3D ( 'NONE', #316, #264, #209 ) ;
#24 = SHAPE_DEFINITION_REPRESENTATION ( #180, #143 ) ;
#25 = LINE ( 'NONE', #19, #257 ) ;
#26 = CALENDAR_DATE ( 2020, 22, 12 ) ;
#27 = EDGE_CURVE ( 'NONE', #312, #35, #189, .T. ) ;
#28 = ORIENTED_EDGE ( 'NONE', *, *, #275, .F. ) ;
#29 = VECTOR ( 'NONE', #290, 1000.000000000000000 ) ;
#30 = VERTEX_POINT ( 'NONE', #162 ) ;
#31 = APPROVAL ( #197, 'UNSPECIFIED' ) ;
#32 = EDGE_LOOP ( 'NONE', ( #238, #116, #130 ) ) ;
#33 = AXIS2_PLACEMENT_3D ( 'NONE', #184, #109, #285 ) ;
#34 =( GEOMETRIC_REPRESENTATION_CONTEXT ( 3 ) GLOBAL_UNCERTAINTY_ASSIGNED_CONTEXT ( ( #175 ) ) GLOBAL_UNIT_ASSIGNED_CONTEXT ( ( #191, #261, #136 ) ) REPRESENTATION_CONTEXT ( 'NONE', 'WORKASPACE' ) );
#35 = VERTEX_POINT ( 'NONE', #244 ) ;
#36 = CARTESIAN_POINT ( 'NONE',  ( 5.000000000000002665, 5.000000000000000000, 5.000000000000000000 ) ) ;
#37 = AXIS2_PLACEMENT_3D ( 'NONE', #72, #100, #102 ) ;
#38 = CARTESIAN_POINT ( 'NONE',  ( 5.000000000000000888, 5.000000000000001776, -5.000000000000000000 ) ) ;
#39 = ORGANIZATION ( 'UNSPECIFIED', 'UNSPECIFIED', '' ) ;
#40 = CARTESIAN_POINT ( 'NONE',  ( 5.000000000000002665, 5.000000000000000000, 5.000000000000000000 ) ) ;
#41 = ORIENTED_EDGE ( 'NONE', *, *, #5, .F. ) ;
#42 = ORIENTED_EDGE ( 'NONE', *, *, #91, .F. ) ;
#43 = APPLICATION_CONTEXT ( 'configuration controlled 3d designs of mechanical parts and assemblies' ) ;
#44 = AXIS2_PLACEMENT_3D ( 'NONE', #48, #301, #293 ) ;
#45 = PLANE ( 'NONE',  #225 ) ;
#46 = APPROVAL_ROLE ( '' ) ;
#47 = DIRECTION ( 'NONE',  ( 1.000000000000000000, 0.000000000000000000, 0.000000000000000000 ) ) ;
#48 = CARTESIAN_POINT ( 'NONE',  ( 0.000000000000000000, 0.000000000000000000, 0.000000000000000000 ) ) ;
#49 = LINE ( 'NONE', #292, #16 ) ;
#50 = APPROVAL ( #140, 'UNSPECIFIED' ) ;
#51 = DATE_AND_TIME ( #70, #64 ) ;
#52 = CARTESIAN_POINT ( 'NONE',  ( -4.999999999999999112, -5.000000000000000000, -5.000000000000000000 ) ) ;
#53 = PERSON_AND_ORGANIZATION ( #236, #39 ) ;
#54 = CARTESIAN_POINT ( 'NONE',  ( 5.000000000000000888, 5.000000000000001776, 5.000000000000000000 ) ) ;
#55 = ADVANCED_FACE ( 'NONE', ( #157 ), #164, .T. ) ;
#56 = CC_DESIGN_PERSON_AND_ORGANIZATION_ASSIGNMENT ( #223, #126, ( #245 ) ) ;
#57 = VERTEX_POINT ( 'NONE', #54 ) ;
#58 = CLOSED_SHELL ( 'NONE', ( #242, #237, #3, #55, #249 ) ) ;
#59 = LOCAL_TIME ( 10, 9, 33.00000000000000000, #97 ) ;
#60 = CARTESIAN_POINT ( 'NONE',  ( 5.000000000000000888, -5.000000000000000000, -5.000000000000000000 ) ) ;
#61 = CARTESIAN_POINT ( 'NONE',  ( -5.000000000000000888, -4.999999999999998224, -5.000000000000000000 ) ) ;
#62 = ORIENTED_EDGE ( 'NONE', *, *, #91, .T. ) ;
#63 = DIRECTION ( 'NONE',  ( -0.7071067811865475727, -0.7071067811865474617, 0.000000000000000000 ) ) ;
#64 = LOCAL_TIME ( 10, 9, 33.00000000000000000, #273 ) ;
#65 = EDGE_CURVE ( 'NONE', #176, #255, #171, .T. ) ;
#66 = DIRECTION ( 'NONE',  ( -0.7071067811865474617, 0.7071067811865475727, 0.000000000000000000 ) ) ;
#67 = EDGE_LOOP ( 'NONE', ( #254, #265, #152, #110 ) ) ;
#68 = DIRECTION ( 'NONE',  ( 2.220446049250313081E-16, 1.000000000000000000, 0.000000000000000000 ) ) ;
#69 = FACE_OUTER_BOUND ( 'NONE', #155, .T. ) ;
#70 = CALENDAR_DATE ( 2020, 22, 12 ) ;
#71 = VECTOR ( 'NONE', #90, 1000.000000000000000 ) ;
#72 = CARTESIAN_POINT ( 'NONE',  ( 0.000000000000000000, 0.000000000000000000, 5.000000000000000000 ) ) ;
#73 = DIRECTION ( 'NONE',  ( 1.734723475976807094E-16, 1.000000000000000000, -0.000000000000000000 ) ) ;
#74 = COORDINATED_UNIVERSAL_TIME_OFFSET ( 8, 0, .AHEAD. ) ;
#75 = FACE_OUTER_BOUND ( 'NONE', #32, .T. ) ;
#76 = APPROVAL_ROLE ( '' ) ;
#77 = DIRECTION ( 'NONE',  ( -0.000000000000000000, 0.000000000000000000, -1.000000000000000000 ) ) ;
#78 = EDGE_CURVE ( 'NONE', #280, #312, #199, .T. ) ;
#79 = APPROVAL_ROLE ( '' ) ;
#80 = ORIENTED_EDGE ( 'NONE', *, *, #234, .F. ) ;
#81 = VECTOR ( 'NONE', #147, 1000.000000000000000 ) ;
#82 = VECTOR ( 'NONE', #186, 1000.000000000000000 ) ;
#83 = ORIENTED_EDGE ( 'NONE', *, *, #211, .F. ) ;
#84 = ORIENTED_EDGE ( 'NONE', *, *, #65, .T. ) ;
#85 = ORIENTED_EDGE ( 'NONE', *, *, #232, .F. ) ;
#86 = PLANE ( 'NONE',  #267 ) ;
#87 = EDGE_LOOP ( 'NONE', ( #262, #10, #302, #310 ) ) ;
#88 = CARTESIAN_POINT ( 'NONE',  ( 5.000000000000002665, 5.000000000000000000, 5.000000000000000000 ) ) ;
#89 = VERTEX_POINT ( 'NONE', #224 ) ;
#90 = DIRECTION ( 'NONE',  ( -0.000000000000000000, 0.000000000000000000, -1.000000000000000000 ) ) ;
#91 = EDGE_CURVE ( 'NONE', #255, #89, #49, .T. ) ;
#92 = VERTEX_POINT ( 'NONE', #266 ) ;
#93 = LOCAL_TIME ( 10, 9, 33.00000000000000000, #99 ) ;
#94 = ORIENTED_EDGE ( 'NONE', *, *, #27, .T. ) ;
#95 = LINE ( 'NONE', #9, #204 ) ;
#96 = CARTESIAN_POINT ( 'NONE',  ( -4.999999999999999112, -5.000000000000000000, 5.000000000000000000 ) ) ;
#97 = COORDINATED_UNIVERSAL_TIME_OFFSET ( 8, 0, .AHEAD. ) ;
#98 = PLANE ( 'NONE',  #111 ) ;
#99 = COORDINATED_UNIVERSAL_TIME_OFFSET ( 8, 0, .AHEAD. ) ;
#100 = DIRECTION ( 'NONE',  ( -0.000000000000000000, 0.000000000000000000, 1.000000000000000000 ) ) ;
#101 = DATE_AND_TIME ( #315, #151 ) ;
#102 = DIRECTION ( 'NONE',  ( 1.000000000000000000, 0.000000000000000000, 0.000000000000000000 ) ) ;
#103 = CC_DESIGN_PERSON_AND_ORGANIZATION_ASSIGNMENT ( #120, #268, ( #307 ) ) ;
#104 = CARTESIAN_POINT ( 'NONE',  ( -4.999999999999999112, -5.000000000000000000, 5.000000000000000000 ) ) ;
#105 = VECTOR ( 'NONE', #201, 1000.000000000000000 ) ;
#106 = VECTOR ( 'NONE', #160, 1000.000000000000000 ) ;
#107 = CC_DESIGN_DATE_AND_TIME_ASSIGNMENT ( #101, #299, ( #15 ) ) ;
#108 = CC_DESIGN_APPROVAL ( #50, ( #245 ) ) ;
#109 = DIRECTION ( 'NONE',  ( -4.857225732735059864E-17, -1.000000000000000000, 0.000000000000000000 ) ) ;
#110 = ORIENTED_EDGE ( 'NONE', *, *, #5, .T. ) ;
#111 = AXIS2_PLACEMENT_3D ( 'NONE', #118, #251, #230 ) ;
#112 = VECTOR ( 'NONE', #63, 1000.000000000000000 ) ;
#113 = CARTESIAN_POINT ( 'NONE',  ( -4.999999999999999112, -5.000000000000000000, 5.000000000000000000 ) ) ;
#114 = ORIENTED_EDGE ( 'NONE', *, *, #177, .T. ) ;
#115 = DIRECTION ( 'NONE',  ( -0.000000000000000000, -0.000000000000000000, -1.000000000000000000 ) ) ;
#116 = ORIENTED_EDGE ( 'NONE', *, *, #211, .T. ) ;
#117 = CARTESIAN_POINT ( 'NONE',  ( 5.000000000000002665, 5.000000000000000000, -5.000000000000000000 ) ) ;
#118 = CARTESIAN_POINT ( 'NONE',  ( 5.000000000000002665, 5.000000000000000000, 5.000000000000000000 ) ) ;
#119 = ADVANCED_FACE ( 'NONE', ( #75 ), #277, .T. ) ;
#120 = PERSON_AND_ORGANIZATION ( #236, #39 ) ;
#121 = FACE_OUTER_BOUND ( 'NONE', #148, .T. ) ;
#122 = MECHANICAL_CONTEXT ( 'NONE', #43, 'mechanical' ) ;
#123 = APPROVAL_PERSON_ORGANIZATION ( #53, #165, #79 ) ;
#124 = DIRECTION ( 'NONE',  ( -0.000000000000000000, -0.000000000000000000, -1.000000000000000000 ) ) ;
#125 = FACE_OUTER_BOUND ( 'NONE', #67, .T. ) ;
#126 = PERSON_AND_ORGANIZATION_ROLE ( 'classification_officer' ) ;
#127 = ADVANCED_FACE ( 'NONE', ( #121 ), #170, .F. ) ;
#128 = ORIENTED_EDGE ( 'NONE', *, *, #303, .F. ) ;
#129 = ADVANCED_FACE ( 'NONE', ( #192 ), #45, .F. ) ;
#130 = ORIENTED_EDGE ( 'NONE', *, *, #306, .T. ) ;
#131 = LINE ( 'NONE', #156, #206 ) ;
#132 = VECTOR ( 'NONE', #115, 1000.000000000000000 ) ;
#133 = LOCAL_TIME ( 10, 9, 33.00000000000000000, #74 ) ;
#134 = CARTESIAN_POINT ( 'NONE',  ( 5.000000000000000888, 5.000000000000001776, 5.000000000000000000 ) ) ;
#135 = CC_DESIGN_PERSON_AND_ORGANIZATION_ASSIGNMENT ( #319, #221, ( #161 ) ) ;
#136 =( NAMED_UNIT ( * ) SI_UNIT ( $, .STERADIAN. ) SOLID_ANGLE_UNIT ( ) );
#137 = EDGE_LOOP ( 'NONE', ( #62, #41, #4, #84 ) ) ;
#138 = FACE_OUTER_BOUND ( 'NONE', #190, .T. ) ;
#139 = ORIENTED_EDGE ( 'NONE', *, *, #263, .T. ) ;
#140 = APPROVAL_STATUS ( 'not_yet_approved' ) ;
#141 = APPLICATION_CONTEXT ( 'configuration controlled 3d designs of mechanical parts and assemblies' ) ;
#142 = DIRECTION ( 'NONE',  ( 2.220446049250313081E-16, 1.000000000000000000, 0.000000000000000000 ) ) ;
#143 = ADVANCED_BREP_SHAPE_REPRESENTATION ( 'BK7-NPBSC-10-420-700', ( #181, #289, #44 ), #34 ) ;
#144 = LINE ( 'NONE', #104, #105 ) ;
#145 = DIRECTION ( 'NONE',  ( 1.000000000000000000, 0.000000000000000000, 0.000000000000000000 ) ) ;
#146 = PERSON_AND_ORGANIZATION ( #236, #39 ) ;
#147 = DIRECTION ( 'NONE',  ( 1.000000000000000000, -4.857225732735059864E-17, 0.000000000000000000 ) ) ;
#148 = EDGE_LOOP ( 'NONE', ( #114, #287, #83, #216 ) ) ;
#149 = EDGE_CURVE ( 'NONE', #305, #182, #25, .T. ) ;
#150 = CLOSED_SHELL ( 'NONE', ( #153, #127, #129, #119, #198 ) ) ;
#151 = LOCAL_TIME ( 10, 9, 33.00000000000000000, #278 ) ;
#152 = ORIENTED_EDGE ( 'NONE', *, *, #320, .F. ) ;
#153 = ADVANCED_FACE ( 'NONE', ( #125 ), #98, .F. ) ;
#154 = VECTOR ( 'NONE', #215, 1000.000000000000000 ) ;
#155 = EDGE_LOOP ( 'NONE', ( #80, #42, #210 ) ) ;
#156 = CARTESIAN_POINT ( 'NONE',  ( 5.000000000000000888, 5.000000000000001776, 5.000000000000000000 ) ) ;
#157 = FACE_OUTER_BOUND ( 'NONE', #308, .T. ) ;
#158 = CC_DESIGN_PERSON_AND_ORGANIZATION_ASSIGNMENT ( #271, #200, ( #15 ) ) ;
#159 = CC_DESIGN_SECURITY_CLASSIFICATION ( #245, ( #307 ) ) ;
#160 = DIRECTION ( 'NONE',  ( 1.000000000000000000, -4.857225732735059864E-17, 0.000000000000000000 ) ) ;
#161 = PRODUCT ( 'BK7-NPBSC-10-420-700', 'BK7-NPBSC-10-420-700', '', ( #122 ) ) ;
#162 = CARTESIAN_POINT ( 'NONE',  ( -4.999999999999999112, 5.000000000000001776, 5.000000000000000000 ) ) ;
#163 = DESIGN_CONTEXT ( 'detailed design', #141, 'design' ) ;
#164 = PLANE ( 'NONE',  #2 ) ;
#165 = APPROVAL ( #169, 'UNSPECIFIED' ) ;
#166 = LINE ( 'NONE', #288, #71 ) ;
#167 = CARTESIAN_POINT ( 'NONE',  ( -4.999999999999999112, 5.000000000000001776, 5.000000000000000000 ) ) ;
#168 = VECTOR ( 'NONE', #318, 1000.000000000000000 ) ;
#169 = APPROVAL_STATUS ( 'not_yet_approved' ) ;
#170 = PLANE ( 'NONE',  #178 ) ;
#171 = LINE ( 'NONE', #253, #217 ) ;
#172 = DATE_TIME_ROLE ( 'classification_date' ) ;
#173 = DIRECTION ( 'NONE',  ( -1.734723475976807094E-16, -1.000000000000000000, 0.000000000000000000 ) ) ;
#174 = CARTESIAN_POINT ( 'NONE',  ( 5.000000000000000888, 5.000000000000001776, -5.000000000000000000 ) ) ;
#175 = UNCERTAINTY_MEASURE_WITH_UNIT (LENGTH_MEASURE( 1.000000000000000082E-05 ), #191, 'distance_accuracy_value', 'NONE');
#176 = VERTEX_POINT ( 'NONE', #1 ) ;
#177 = EDGE_CURVE ( 'NONE', #182, #255, #274, .T. ) ;
#178 = AXIS2_PLACEMENT_3D ( 'NONE', #96, #22, #270 ) ;
#179 = ORIENTED_EDGE ( 'NONE', *, *, #232, .T. ) ;
#180 = PRODUCT_DEFINITION_SHAPE ( 'NONE', 'NONE',  #15 ) ;
#181 = MANIFOLD_SOLID_BREP ( 'Í¹Ì¨-À', #150 ) ;
#182 = VERTEX_POINT ( 'NONE', #196 ) ;
#183 = FACE_OUTER_BOUND ( 'NONE', #279, .T. ) ;
#184 = CARTESIAN_POINT ( 'NONE',  ( 5.000000000000000888, 5.000000000000001776, 5.000000000000000000 ) ) ;
#185 = EDGE_CURVE ( 'NONE', #30, #35, #228, .T. ) ;
#186 = DIRECTION ( 'NONE',  ( -0.000000000000000000, 0.000000000000000000, -1.000000000000000000 ) ) ;
#187 = EDGE_LOOP ( 'NONE', ( #85, #260, #283, #281 ) ) ;
#188 = CARTESIAN_POINT ( 'NONE',  ( 5.000000000000000888, 5.000000000000001776, 5.000000000000000000 ) ) ;
#189 = LINE ( 'NONE', #61, #29 ) ;
#190 = EDGE_LOOP ( 'NONE', ( #13, #128, #11, #139 ) ) ;
#191 =( LENGTH_UNIT ( ) NAMED_UNIT ( * ) SI_UNIT ( .MILLI., .METRE. ) );
#192 = FACE_OUTER_BOUND ( 'NONE', #137, .T. ) ;
#193 = CARTESIAN_POINT ( 'NONE',  ( 5.000000000000000888, 5.000000000000001776, -5.000000000000000000 ) ) ;
#194 = VECTOR ( 'NONE', #77, 1000.000000000000000 ) ;
#195 = PERSON_AND_ORGANIZATION_ROLE ( 'creator' ) ;
#196 = CARTESIAN_POINT ( 'NONE',  ( -4.999999999999999112, -5.000000000000000000, -5.000000000000000000 ) ) ;
#197 = APPROVAL_STATUS ( 'not_yet_approved' ) ;
#198 = ADVANCED_FACE ( 'NONE', ( #69 ), #295, .F. ) ;
#199 = LINE ( 'NONE', #193, #168 ) ;
#200 = PERSON_AND_ORGANIZATION_ROLE ( 'creator' ) ;
#201 = DIRECTION ( 'NONE',  ( 1.000000000000000000, 0.000000000000000000, 0.000000000000000000 ) ) ;
#202 = APPROVAL_DATE_TIME ( #51, #50 ) ;
#203 = AXIS2_PLACEMENT_3D ( 'NONE', #321, #21, #145 ) ;
#204 = VECTOR ( 'NONE', #212, 1000.000000000000000 ) ;
#205 = CC_DESIGN_DATE_AND_TIME_ASSIGNMENT ( #231, #172, ( #245 ) ) ;
#206 = VECTOR ( 'NONE', #259, 1000.000000000000000 ) ;
#207 = ORIENTED_EDGE ( 'NONE', *, *, #78, .T. ) ;
#208 = LINE ( 'NONE', #36, #132 ) ;
#209 = DIRECTION ( 'NONE',  ( 0.000000000000000000, 0.000000000000000000, 1.000000000000000000 ) ) ;
#210 = ORIENTED_EDGE ( 'NONE', *, *, #177, .F. ) ;
#211 = EDGE_CURVE ( 'NONE', #305, #176, #144, .T. ) ;
#212 = DIRECTION ( 'NONE',  ( 2.220446049250313081E-16, 1.000000000000000000, 0.000000000000000000 ) ) ;
#213 = ORIENTED_EDGE ( 'NONE', *, *, #258, .F. ) ;
#214 = PLANE ( 'NONE',  #17 ) ;
#215 = DIRECTION ( 'NONE',  ( 1.734723475976807094E-16, 1.000000000000000000, -0.000000000000000000 ) ) ;
#216 = ORIENTED_EDGE ( 'NONE', *, *, #149, .T. ) ;
#217 = VECTOR ( 'NONE', #272, 1000.000000000000000 ) ;
#218 = APPROVAL_PERSON_ORGANIZATION ( #250, #31, #76 ) ;
#219 = CARTESIAN_POINT ( 'NONE',  ( 0.000000000000000000, 0.000000000000000000, -5.000000000000000000 ) ) ;
#220 = DIRECTION ( 'NONE',  ( -0.7071067811865475727, -0.7071067811865474617, 0.000000000000000000 ) ) ;
#221 = PERSON_AND_ORGANIZATION_ROLE ( 'design_owner' ) ;
#222 = PLANE ( 'NONE',  #23 ) ;
#223 = PERSON_AND_ORGANIZATION ( #236, #39 ) ;
#224 = CARTESIAN_POINT ( 'NONE',  ( 5.000000000000002665, 5.000000000000000000, -5.000000000000000000 ) ) ;
#225 = AXIS2_PLACEMENT_3D ( 'NONE', #248, #246, #173 ) ;
#226 = CC_DESIGN_APPROVAL ( #31, ( #307 ) ) ;
#227 = CALENDAR_DATE ( 2020, 22, 12 ) ;
#228 = LINE ( 'NONE', #167, #194 ) ;
#229 = APPROVAL_DATE_TIME ( #294, #165 ) ;
#230 = DIRECTION ( 'NONE',  ( 0.7071067811865475727, 0.7071067811865474617, 0.000000000000000000 ) ) ;
#231 = DATE_AND_TIME ( #26, #133 ) ;
#232 = EDGE_CURVE ( 'NONE', #35, #280, #300, .T. ) ;
#233 = CC_DESIGN_APPROVAL ( #165, ( #15 ) ) ;
#234 = EDGE_CURVE ( 'NONE', #89, #182, #18, .T. ) ;
#235 = CARTESIAN_POINT ( 'NONE',  ( 5.000000000000000888, 5.000000000000001776, 5.000000000000000000 ) ) ;
#236 = PERSON ( 'UNSPECIFIED', 'UNSPECIFIED', 'UNSPECIFIED', ('UNSPECIFIED'), ('UNSPECIFIED'), ('UNSPECIFIED') ) ;
#237 = ADVANCED_FACE ( 'NONE', ( #314 ), #222, .F. ) ;
#238 = ORIENTED_EDGE ( 'NONE', *, *, #320, .T. ) ;
#239 = LINE ( 'NONE', #134, #82 ) ;
#240 = CARTESIAN_POINT ( 'NONE',  ( 0.000000000000000000, 0.000000000000000000, 5.000000000000000000 ) ) ;
#241 = FACE_OUTER_BOUND ( 'NONE', #187, .T. ) ;
#242 = ADVANCED_FACE ( 'NONE', ( #138 ), #214, .F. ) ;
#243 = LINE ( 'NONE', #88, #154 ) ;
#244 = CARTESIAN_POINT ( 'NONE',  ( -4.999999999999999112, 5.000000000000001776, -5.000000000000000000 ) ) ;
#245 = SECURITY_CLASSIFICATION ( '', '', #252 ) ;
#246 = DIRECTION ( 'NONE',  ( -1.000000000000000000, 1.734723475976807094E-16, 0.000000000000000000 ) ) ;
#247 = APPLICATION_PROTOCOL_DEFINITION ( 'international standard', 'config_control_design', 1994, #141 ) ;
#248 = CARTESIAN_POINT ( 'NONE',  ( 5.000000000000002665, 5.000000000000000000, 5.000000000000000000 ) ) ;
#249 = ADVANCED_FACE ( 'NONE', ( #183 ), #86, .F. ) ;
#250 = PERSON_AND_ORGANIZATION ( #236, #39 ) ;
#251 = DIRECTION ( 'NONE',  ( 0.7071067811865474617, -0.7071067811865475727, 0.000000000000000000 ) ) ;
#252 = SECURITY_CLASSIFICATION_LEVEL ( 'unclassified' ) ;
#253 = CARTESIAN_POINT ( 'NONE',  ( 5.000000000000000888, -5.000000000000000000, 5.000000000000000000 ) ) ;
#254 = ORIENTED_EDGE ( 'NONE', *, *, #234, .T. ) ;
#255 = VERTEX_POINT ( 'NONE', #60 ) ;
#256 = PRODUCT_RELATED_PRODUCT_CATEGORY ( 'detail', '', ( #161 ) ) ;
#257 = VECTOR ( 'NONE', #124, 1000.000000000000000 ) ;
#258 = EDGE_CURVE ( 'NONE', #57, #92, #131, .T. ) ;
#259 = DIRECTION ( 'NONE',  ( -0.7071067811865475727, -0.7071067811865474617, 0.000000000000000000 ) ) ;
#260 = ORIENTED_EDGE ( 'NONE', *, *, #185, .F. ) ;
#261 =( NAMED_UNIT ( * ) PLANE_ANGLE_UNIT ( ) SI_UNIT ( $, .RADIAN. ) );
#262 = ORIENTED_EDGE ( 'NONE', *, *, #27, .F. ) ;
#263 = EDGE_CURVE ( 'NONE', #92, #312, #166, .T. ) ;
#264 = DIRECTION ( 'NONE',  ( 1.000000000000000000, -2.220446049250313081E-16, 0.000000000000000000 ) ) ;
#265 = ORIENTED_EDGE ( 'NONE', *, *, #149, .F. ) ;
#266 = CARTESIAN_POINT ( 'NONE',  ( -5.000000000000000888, -4.999999999999998224, 5.000000000000000000 ) ) ;
#267 = AXIS2_PLACEMENT_3D ( 'NONE', #219, #284, #68 ) ;
#268 = PERSON_AND_ORGANIZATION_ROLE ( 'design_supplier' ) ;
#269 = EDGE_CURVE ( 'NONE', #30, #57, #313, .T. ) ;
#270 = DIRECTION ( 'NONE',  ( 0.000000000000000000, -0.000000000000000000, 1.000000000000000000 ) ) ;
#271 = PERSON_AND_ORGANIZATION ( #236, #39 ) ;
#272 = DIRECTION ( 'NONE',  ( -0.000000000000000000, -0.000000000000000000, -1.000000000000000000 ) ) ;
#273 = COORDINATED_UNIVERSAL_TIME_OFFSET ( 8, 0, .AHEAD. ) ;
#274 = LINE ( 'NONE', #52, #8 ) ;
#275 = EDGE_CURVE ( 'NONE', #92, #30, #95, .T. ) ;
#276 = DATE_AND_TIME ( #296, #59 ) ;
#277 = PLANE ( 'NONE',  #37 ) ;
#278 = COORDINATED_UNIVERSAL_TIME_OFFSET ( 8, 0, .AHEAD. ) ;
#279 = EDGE_LOOP ( 'NONE', ( #207, #94, #179 ) ) ;
#280 = VERTEX_POINT ( 'NONE', #38 ) ;
#281 = ORIENTED_EDGE ( 'NONE', *, *, #303, .T. ) ;
#282 = APPROVAL_PERSON_ORGANIZATION ( #20, #50, #46 ) ;
#283 = ORIENTED_EDGE ( 'NONE', *, *, #269, .T. ) ;
#284 = DIRECTION ( 'NONE',  ( 0.000000000000000000, -0.000000000000000000, 1.000000000000000000 ) ) ;
#285 = DIRECTION ( 'NONE',  ( -1.000000000000000000, 4.857225732735059864E-17, 0.000000000000000000 ) ) ;
#286 = CARTESIAN_POINT ( 'NONE',  ( -5.000000000000000888, -4.999999999999998224, -5.000000000000000000 ) ) ;
#287 = ORIENTED_EDGE ( 'NONE', *, *, #65, .F. ) ;
#288 = CARTESIAN_POINT ( 'NONE',  ( -5.000000000000000888, -4.999999999999998224, 5.000000000000000000 ) ) ;
#289 = MANIFOLD_SOLID_BREP ( '¾µÏ', #58 ) ;
#290 = DIRECTION ( 'NONE',  ( 2.220446049250313081E-16, 1.000000000000000000, 0.000000000000000000 ) ) ;
#291 = PLANE ( 'NONE',  #33 ) ;
#292 = CARTESIAN_POINT ( 'NONE',  ( 5.000000000000002665, 5.000000000000000000, -5.000000000000000000 ) ) ;
#293 = DIRECTION ( 'NONE',  ( 1.000000000000000000, 0.000000000000000000, 0.000000000000000000 ) ) ;
#294 = DATE_AND_TIME ( #227, #93 ) ;
#295 = PLANE ( 'NONE',  #203 ) ;
#296 = CALENDAR_DATE ( 2020, 22, 12 ) ;
#297 = CC_DESIGN_PERSON_AND_ORGANIZATION_ASSIGNMENT ( #146, #195, ( #307 ) ) ;
#298 = DIRECTION ( 'NONE',  ( 0.000000000000000000, -0.000000000000000000, 1.000000000000000000 ) ) ;
#299 = DATE_TIME_ROLE ( 'creation_date' ) ;
#300 = LINE ( 'NONE', #174, #81 ) ;
#301 = DIRECTION ( 'NONE',  ( 0.000000000000000000, 0.000000000000000000, 1.000000000000000000 ) ) ;
#302 = ORIENTED_EDGE ( 'NONE', *, *, #275, .T. ) ;
#303 = EDGE_CURVE ( 'NONE', #57, #280, #239, .T. ) ;
#304 = VECTOR ( 'NONE', #220, 1000.000000000000000 ) ;
#305 = VERTEX_POINT ( 'NONE', #113 ) ;
#306 = EDGE_CURVE ( 'NONE', #176, #311, #243, .T. ) ;
#307 = PRODUCT_DEFINITION_FORMATION_WITH_SPECIFIED_SOURCE ( 'ANY', '', #161, .NOT_KNOWN. ) ;
#308 = EDGE_LOOP ( 'NONE', ( #213, #7, #28 ) ) ;
#309 = CARTESIAN_POINT ( 'NONE',  ( 5.000000000000002665, 5.000000000000000000, 5.000000000000000000 ) ) ;
#310 = ORIENTED_EDGE ( 'NONE', *, *, #185, .T. ) ;
#311 = VERTEX_POINT ( 'NONE', #309 ) ;
#312 = VERTEX_POINT ( 'NONE', #286 ) ;
#313 = LINE ( 'NONE', #235, #106 ) ;
#314 = FACE_OUTER_BOUND ( 'NONE', #87, .T. ) ;
#315 = CALENDAR_DATE ( 2020, 22, 12 ) ;
#316 = CARTESIAN_POINT ( 'NONE',  ( -5.000000000000000888, -4.999999999999998224, 5.000000000000000000 ) ) ;
#317 = APPROVAL_DATE_TIME ( #276, #31 ) ;
#318 = DIRECTION ( 'NONE',  ( -0.7071067811865475727, -0.7071067811865474617, 0.000000000000000000 ) ) ;
#319 = PERSON_AND_ORGANIZATION ( #236, #39 ) ;
#320 = EDGE_CURVE ( 'NONE', #311, #305, #14, .T. ) ;
#321 = CARTESIAN_POINT ( 'NONE',  ( 0.000000000000000000, 0.000000000000000000, -5.000000000000000000 ) ) ;
ENDSEC;
END-ISO-10303-21;
